ISO-10303-21;
HEADER;
/* Generated by software containing ST-Developer
 * from STEP Tools, Inc. (www.steptools.com) 
 */

FILE_DESCRIPTION(
/* description */ (''),
/* implementation_level */ '2;1');

FILE_NAME(
/* name */ 
'C:\\Users\\Richard\\Desktop\\export\\#Motedis\\Universal plates\\UNI 
MOUNT small H3 5.5.stp',
/* time_stamp */ '2016-08-27T15:28:36+02:00',
/* author */ ('Richard'),
/* organization */ (''),
/* preprocessor_version */ 'ST-DEVELOPER v16.1',
/* originating_system */ 'Autodesk Inventor 2016',
/* authorisation */ '');

FILE_SCHEMA (('AUTOMOTIVE_DESIGN { 1 0 10303 214 3 1 1 }'));
ENDSEC;

DATA;
#10=MECHANICAL_DESIGN_GEOMETRIC_PRESENTATION_REPRESENTATION('',(#13),#519);
#11=SHAPE_REPRESENTATION_RELATIONSHIP('SRR','None',#528,#12);
#12=ADVANCED_BREP_SHAPE_REPRESENTATION('',(#14),#518);
#13=STYLED_ITEM('',(#537),#14);
#14=MANIFOLD_SOLID_BREP('Solid1',#307);
#15=FACE_BOUND('',#52,.T.);
#16=FACE_BOUND('',#54,.T.);
#17=FACE_BOUND('',#64,.T.);
#18=FACE_BOUND('',#65,.T.);
#19=FACE_BOUND('',#66,.T.);
#20=FACE_BOUND('',#68,.T.);
#21=FACE_BOUND('',#69,.T.);
#22=FACE_BOUND('',#70,.T.);
#23=PLANE('',#312);
#24=PLANE('',#316);
#25=PLANE('',#326);
#26=PLANE('',#330);
#27=PLANE('',#334);
#28=PLANE('',#338);
#29=PLANE('',#339);
#30=PLANE('',#340);
#31=FACE_OUTER_BOUND('',#47,.T.);
#32=FACE_OUTER_BOUND('',#48,.T.);
#33=FACE_OUTER_BOUND('',#49,.T.);
#34=FACE_OUTER_BOUND('',#50,.T.);
#35=FACE_OUTER_BOUND('',#51,.T.);
#36=FACE_OUTER_BOUND('',#53,.T.);
#37=FACE_OUTER_BOUND('',#55,.T.);
#38=FACE_OUTER_BOUND('',#56,.T.);
#39=FACE_OUTER_BOUND('',#57,.T.);
#40=FACE_OUTER_BOUND('',#58,.T.);
#41=FACE_OUTER_BOUND('',#59,.T.);
#42=FACE_OUTER_BOUND('',#60,.T.);
#43=FACE_OUTER_BOUND('',#61,.T.);
#44=FACE_OUTER_BOUND('',#62,.T.);
#45=FACE_OUTER_BOUND('',#63,.T.);
#46=FACE_OUTER_BOUND('',#67,.T.);
#47=EDGE_LOOP('',(#203,#204,#205,#206));
#48=EDGE_LOOP('',(#207,#208,#209,#210));
#49=EDGE_LOOP('',(#211,#212,#213,#214));
#50=EDGE_LOOP('',(#215,#216,#217,#218));
#51=EDGE_LOOP('',(#219));
#52=EDGE_LOOP('',(#220));
#53=EDGE_LOOP('',(#221));
#54=EDGE_LOOP('',(#222));
#55=EDGE_LOOP('',(#223,#224,#225,#226));
#56=EDGE_LOOP('',(#227,#228,#229,#230));
#57=EDGE_LOOP('',(#231,#232,#233,#234));
#58=EDGE_LOOP('',(#235,#236,#237,#238));
#59=EDGE_LOOP('',(#239,#240,#241,#242));
#60=EDGE_LOOP('',(#243,#244,#245,#246));
#61=EDGE_LOOP('',(#247,#248,#249,#250));
#62=EDGE_LOOP('',(#251,#252,#253,#254));
#63=EDGE_LOOP('',(#255,#256,#257,#258,#259,#260,#261,#262));
#64=EDGE_LOOP('',(#263,#264,#265,#266));
#65=EDGE_LOOP('',(#267));
#66=EDGE_LOOP('',(#268));
#67=EDGE_LOOP('',(#269,#270,#271,#272,#273,#274,#275,#276));
#68=EDGE_LOOP('',(#277,#278,#279,#280));
#69=EDGE_LOOP('',(#281));
#70=EDGE_LOOP('',(#282));
#71=LINE('',#437,#95);
#72=LINE('',#440,#96);
#73=LINE('',#443,#97);
#74=LINE('',#445,#98);
#75=LINE('',#446,#99);
#76=LINE('',#451,#100);
#77=LINE('',#454,#101);
#78=LINE('',#455,#102);
#79=LINE('',#471,#103);
#80=LINE('',#474,#104);
#81=LINE('',#477,#105);
#82=LINE('',#479,#106);
#83=LINE('',#480,#107);
#84=LINE('',#486,#108);
#85=LINE('',#489,#109);
#86=LINE('',#491,#110);
#87=LINE('',#492,#111);
#88=LINE('',#498,#112);
#89=LINE('',#501,#113);
#90=LINE('',#503,#114);
#91=LINE('',#504,#115);
#92=LINE('',#510,#116);
#93=LINE('',#512,#117);
#94=LINE('',#513,#118);
#95=VECTOR('',#347,3.);
#96=VECTOR('',#350,3.);
#97=VECTOR('',#353,18.8046106143358);
#98=VECTOR('',#354,3.);
#99=VECTOR('',#355,18.8046106143358);
#100=VECTOR('',#360,3.);
#101=VECTOR('',#365,18.8046106143358);
#102=VECTOR('',#366,18.8046106143358);
#103=VECTOR('',#383,3.);
#104=VECTOR('',#386,3.);
#105=VECTOR('',#389,42.);
#106=VECTOR('',#390,42.);
#107=VECTOR('',#391,3.);
#108=VECTOR('',#398,3.);
#109=VECTOR('',#401,27.0000000000001);
#110=VECTOR('',#402,27.0000000000001);
#111=VECTOR('',#403,3.);
#112=VECTOR('',#410,3.);
#113=VECTOR('',#413,42.);
#114=VECTOR('',#414,42.);
#115=VECTOR('',#415,3.);
#116=VECTOR('',#422,3.);
#117=VECTOR('',#425,27.);
#118=VECTOR('',#426,27.);
#119=CIRCLE('',#310,2.7);
#120=CIRCLE('',#311,2.7);
#121=CIRCLE('',#314,2.7);
#122=CIRCLE('',#315,2.7);
#123=CIRCLE('',#318,2.7);
#124=CIRCLE('',#319,2.7);
#125=CIRCLE('',#321,2.7);
#126=CIRCLE('',#322,2.7);
#127=CIRCLE('',#324,4.);
#128=CIRCLE('',#325,4.);
#129=CIRCLE('',#328,4.00000000000001);
#130=CIRCLE('',#329,4.00000000000001);
#131=CIRCLE('',#332,4.00000000000001);
#132=CIRCLE('',#333,4.00000000000001);
#133=CIRCLE('',#336,3.99999999999999);
#134=CIRCLE('',#337,3.99999999999999);
#135=VERTEX_POINT('',#433);
#136=VERTEX_POINT('',#434);
#137=VERTEX_POINT('',#436);
#138=VERTEX_POINT('',#438);
#139=VERTEX_POINT('',#442);
#140=VERTEX_POINT('',#444);
#141=VERTEX_POINT('',#448);
#142=VERTEX_POINT('',#450);
#143=VERTEX_POINT('',#457);
#144=VERTEX_POINT('',#459);
#145=VERTEX_POINT('',#462);
#146=VERTEX_POINT('',#464);
#147=VERTEX_POINT('',#467);
#148=VERTEX_POINT('',#468);
#149=VERTEX_POINT('',#470);
#150=VERTEX_POINT('',#472);
#151=VERTEX_POINT('',#476);
#152=VERTEX_POINT('',#478);
#153=VERTEX_POINT('',#482);
#154=VERTEX_POINT('',#484);
#155=VERTEX_POINT('',#488);
#156=VERTEX_POINT('',#490);
#157=VERTEX_POINT('',#494);
#158=VERTEX_POINT('',#496);
#159=VERTEX_POINT('',#500);
#160=VERTEX_POINT('',#502);
#161=VERTEX_POINT('',#506);
#162=VERTEX_POINT('',#508);
#163=EDGE_CURVE('',#135,#136,#119,.T.);
#164=EDGE_CURVE('',#135,#137,#71,.T.);
#165=EDGE_CURVE('',#138,#137,#120,.T.);
#166=EDGE_CURVE('',#136,#138,#72,.T.);
#167=EDGE_CURVE('',#139,#135,#73,.T.);
#168=EDGE_CURVE('',#139,#140,#74,.T.);
#169=EDGE_CURVE('',#137,#140,#75,.T.);
#170=EDGE_CURVE('',#141,#139,#121,.T.);
#171=EDGE_CURVE('',#141,#142,#76,.T.);
#172=EDGE_CURVE('',#140,#142,#122,.T.);
#173=EDGE_CURVE('',#136,#141,#77,.T.);
#174=EDGE_CURVE('',#142,#138,#78,.T.);
#175=EDGE_CURVE('',#143,#143,#123,.T.);
#176=EDGE_CURVE('',#144,#144,#124,.T.);
#177=EDGE_CURVE('',#145,#145,#125,.T.);
#178=EDGE_CURVE('',#146,#146,#126,.T.);
#179=EDGE_CURVE('',#147,#148,#127,.T.);
#180=EDGE_CURVE('',#147,#149,#79,.T.);
#181=EDGE_CURVE('',#150,#149,#128,.T.);
#182=EDGE_CURVE('',#148,#150,#80,.T.);
#183=EDGE_CURVE('',#148,#151,#81,.T.);
#184=EDGE_CURVE('',#152,#150,#82,.T.);
#185=EDGE_CURVE('',#151,#152,#83,.T.);
#186=EDGE_CURVE('',#151,#153,#129,.T.);
#187=EDGE_CURVE('',#154,#152,#130,.T.);
#188=EDGE_CURVE('',#153,#154,#84,.T.);
#189=EDGE_CURVE('',#153,#155,#85,.T.);
#190=EDGE_CURVE('',#156,#154,#86,.T.);
#191=EDGE_CURVE('',#155,#156,#87,.T.);
#192=EDGE_CURVE('',#155,#157,#131,.T.);
#193=EDGE_CURVE('',#158,#156,#132,.T.);
#194=EDGE_CURVE('',#157,#158,#88,.T.);
#195=EDGE_CURVE('',#157,#159,#89,.T.);
#196=EDGE_CURVE('',#160,#158,#90,.T.);
#197=EDGE_CURVE('',#159,#160,#91,.T.);
#198=EDGE_CURVE('',#159,#161,#133,.T.);
#199=EDGE_CURVE('',#162,#160,#134,.T.);
#200=EDGE_CURVE('',#161,#162,#92,.T.);
#201=EDGE_CURVE('',#161,#147,#93,.T.);
#202=EDGE_CURVE('',#149,#162,#94,.T.);
#203=ORIENTED_EDGE('',*,*,#163,.F.);
#204=ORIENTED_EDGE('',*,*,#164,.T.);
#205=ORIENTED_EDGE('',*,*,#165,.F.);
#206=ORIENTED_EDGE('',*,*,#166,.F.);
#207=ORIENTED_EDGE('',*,*,#167,.F.);
#208=ORIENTED_EDGE('',*,*,#168,.T.);
#209=ORIENTED_EDGE('',*,*,#169,.F.);
#210=ORIENTED_EDGE('',*,*,#164,.F.);
#211=ORIENTED_EDGE('',*,*,#170,.F.);
#212=ORIENTED_EDGE('',*,*,#171,.T.);
#213=ORIENTED_EDGE('',*,*,#172,.F.);
#214=ORIENTED_EDGE('',*,*,#168,.F.);
#215=ORIENTED_EDGE('',*,*,#173,.F.);
#216=ORIENTED_EDGE('',*,*,#166,.T.);
#217=ORIENTED_EDGE('',*,*,#174,.F.);
#218=ORIENTED_EDGE('',*,*,#171,.F.);
#219=ORIENTED_EDGE('',*,*,#175,.F.);
#220=ORIENTED_EDGE('',*,*,#176,.F.);
#221=ORIENTED_EDGE('',*,*,#177,.F.);
#222=ORIENTED_EDGE('',*,*,#178,.F.);
#223=ORIENTED_EDGE('',*,*,#179,.F.);
#224=ORIENTED_EDGE('',*,*,#180,.T.);
#225=ORIENTED_EDGE('',*,*,#181,.F.);
#226=ORIENTED_EDGE('',*,*,#182,.F.);
#227=ORIENTED_EDGE('',*,*,#183,.F.);
#228=ORIENTED_EDGE('',*,*,#182,.T.);
#229=ORIENTED_EDGE('',*,*,#184,.F.);
#230=ORIENTED_EDGE('',*,*,#185,.F.);
#231=ORIENTED_EDGE('',*,*,#186,.F.);
#232=ORIENTED_EDGE('',*,*,#185,.T.);
#233=ORIENTED_EDGE('',*,*,#187,.F.);
#234=ORIENTED_EDGE('',*,*,#188,.F.);
#235=ORIENTED_EDGE('',*,*,#189,.F.);
#236=ORIENTED_EDGE('',*,*,#188,.T.);
#237=ORIENTED_EDGE('',*,*,#190,.F.);
#238=ORIENTED_EDGE('',*,*,#191,.F.);
#239=ORIENTED_EDGE('',*,*,#192,.F.);
#240=ORIENTED_EDGE('',*,*,#191,.T.);
#241=ORIENTED_EDGE('',*,*,#193,.F.);
#242=ORIENTED_EDGE('',*,*,#194,.F.);
#243=ORIENTED_EDGE('',*,*,#195,.F.);
#244=ORIENTED_EDGE('',*,*,#194,.T.);
#245=ORIENTED_EDGE('',*,*,#196,.F.);
#246=ORIENTED_EDGE('',*,*,#197,.F.);
#247=ORIENTED_EDGE('',*,*,#198,.F.);
#248=ORIENTED_EDGE('',*,*,#197,.T.);
#249=ORIENTED_EDGE('',*,*,#199,.F.);
#250=ORIENTED_EDGE('',*,*,#200,.F.);
#251=ORIENTED_EDGE('',*,*,#201,.F.);
#252=ORIENTED_EDGE('',*,*,#200,.T.);
#253=ORIENTED_EDGE('',*,*,#202,.F.);
#254=ORIENTED_EDGE('',*,*,#180,.F.);
#255=ORIENTED_EDGE('',*,*,#201,.T.);
#256=ORIENTED_EDGE('',*,*,#179,.T.);
#257=ORIENTED_EDGE('',*,*,#183,.T.);
#258=ORIENTED_EDGE('',*,*,#186,.T.);
#259=ORIENTED_EDGE('',*,*,#189,.T.);
#260=ORIENTED_EDGE('',*,*,#192,.T.);
#261=ORIENTED_EDGE('',*,*,#195,.T.);
#262=ORIENTED_EDGE('',*,*,#198,.T.);
#263=ORIENTED_EDGE('',*,*,#163,.T.);
#264=ORIENTED_EDGE('',*,*,#173,.T.);
#265=ORIENTED_EDGE('',*,*,#170,.T.);
#266=ORIENTED_EDGE('',*,*,#167,.T.);
#267=ORIENTED_EDGE('',*,*,#176,.T.);
#268=ORIENTED_EDGE('',*,*,#178,.T.);
#269=ORIENTED_EDGE('',*,*,#202,.T.);
#270=ORIENTED_EDGE('',*,*,#199,.T.);
#271=ORIENTED_EDGE('',*,*,#196,.T.);
#272=ORIENTED_EDGE('',*,*,#193,.T.);
#273=ORIENTED_EDGE('',*,*,#190,.T.);
#274=ORIENTED_EDGE('',*,*,#187,.T.);
#275=ORIENTED_EDGE('',*,*,#184,.T.);
#276=ORIENTED_EDGE('',*,*,#181,.T.);
#277=ORIENTED_EDGE('',*,*,#165,.T.);
#278=ORIENTED_EDGE('',*,*,#169,.T.);
#279=ORIENTED_EDGE('',*,*,#172,.T.);
#280=ORIENTED_EDGE('',*,*,#174,.T.);
#281=ORIENTED_EDGE('',*,*,#175,.T.);
#282=ORIENTED_EDGE('',*,*,#177,.T.);
#283=CYLINDRICAL_SURFACE('',#309,2.7);
#284=CYLINDRICAL_SURFACE('',#313,2.7);
#285=CYLINDRICAL_SURFACE('',#317,2.7);
#286=CYLINDRICAL_SURFACE('',#320,2.7);
#287=CYLINDRICAL_SURFACE('',#323,4.);
#288=CYLINDRICAL_SURFACE('',#327,4.00000000000001);
#289=CYLINDRICAL_SURFACE('',#331,4.00000000000001);
#290=CYLINDRICAL_SURFACE('',#335,3.99999999999999);
#291=ADVANCED_FACE('',(#31),#283,.F.);
#292=ADVANCED_FACE('',(#32),#23,.F.);
#293=ADVANCED_FACE('',(#33),#284,.F.);
#294=ADVANCED_FACE('',(#34),#24,.F.);
#295=ADVANCED_FACE('',(#35,#15),#285,.F.);
#296=ADVANCED_FACE('',(#36,#16),#286,.F.);
#297=ADVANCED_FACE('',(#37),#287,.T.);
#298=ADVANCED_FACE('',(#38),#25,.T.);
#299=ADVANCED_FACE('',(#39),#288,.T.);
#300=ADVANCED_FACE('',(#40),#26,.T.);
#301=ADVANCED_FACE('',(#41),#289,.T.);
#302=ADVANCED_FACE('',(#42),#27,.T.);
#303=ADVANCED_FACE('',(#43),#290,.T.);
#304=ADVANCED_FACE('',(#44),#28,.T.);
#305=ADVANCED_FACE('',(#45,#17,#18,#19),#29,.F.);
#306=ADVANCED_FACE('',(#46,#20,#21,#22),#30,.T.);
#307=CLOSED_SHELL('',(#291,#292,#293,#294,#295,#296,#297,#298,#299,#300,
#301,#302,#303,#304,#305,#306));
#308=AXIS2_PLACEMENT_3D('placement',#431,#341,#342);
#309=AXIS2_PLACEMENT_3D('',#432,#343,#344);
#310=AXIS2_PLACEMENT_3D('',#435,#345,#346);
#311=AXIS2_PLACEMENT_3D('',#439,#348,#349);
#312=AXIS2_PLACEMENT_3D('',#441,#351,#352);
#313=AXIS2_PLACEMENT_3D('',#447,#356,#357);
#314=AXIS2_PLACEMENT_3D('',#449,#358,#359);
#315=AXIS2_PLACEMENT_3D('',#452,#361,#362);
#316=AXIS2_PLACEMENT_3D('',#453,#363,#364);
#317=AXIS2_PLACEMENT_3D('',#456,#367,#368);
#318=AXIS2_PLACEMENT_3D('',#458,#369,#370);
#319=AXIS2_PLACEMENT_3D('',#460,#371,#372);
#320=AXIS2_PLACEMENT_3D('',#461,#373,#374);
#321=AXIS2_PLACEMENT_3D('',#463,#375,#376);
#322=AXIS2_PLACEMENT_3D('',#465,#377,#378);
#323=AXIS2_PLACEMENT_3D('',#466,#379,#380);
#324=AXIS2_PLACEMENT_3D('',#469,#381,#382);
#325=AXIS2_PLACEMENT_3D('',#473,#384,#385);
#326=AXIS2_PLACEMENT_3D('',#475,#387,#388);
#327=AXIS2_PLACEMENT_3D('',#481,#392,#393);
#328=AXIS2_PLACEMENT_3D('',#483,#394,#395);
#329=AXIS2_PLACEMENT_3D('',#485,#396,#397);
#330=AXIS2_PLACEMENT_3D('',#487,#399,#400);
#331=AXIS2_PLACEMENT_3D('',#493,#404,#405);
#332=AXIS2_PLACEMENT_3D('',#495,#406,#407);
#333=AXIS2_PLACEMENT_3D('',#497,#408,#409);
#334=AXIS2_PLACEMENT_3D('',#499,#411,#412);
#335=AXIS2_PLACEMENT_3D('',#505,#416,#417);
#336=AXIS2_PLACEMENT_3D('',#507,#418,#419);
#337=AXIS2_PLACEMENT_3D('',#509,#420,#421);
#338=AXIS2_PLACEMENT_3D('',#511,#423,#424);
#339=AXIS2_PLACEMENT_3D('',#514,#427,#428);
#340=AXIS2_PLACEMENT_3D('',#515,#429,#430);
#341=DIRECTION('axis',(0.,0.,1.));
#342=DIRECTION('refdir',(1.,0.,0.));
#343=DIRECTION('center_axis',(0.,0.,1.));
#344=DIRECTION('ref_axis',(8.22387425648264E-16,1.,0.));
#345=DIRECTION('center_axis',(0.,0.,1.));
#346=DIRECTION('ref_axis',(8.22387425648264E-16,1.,0.));
#347=DIRECTION('',(0.,0.,1.));
#348=DIRECTION('center_axis',(0.,0.,-1.));
#349=DIRECTION('ref_axis',(8.22387425648264E-16,1.,0.));
#350=DIRECTION('',(0.,0.,1.));
#351=DIRECTION('center_axis',(-5.90399369279558E-16,1.,0.));
#352=DIRECTION('ref_axis',(-1.,-5.32907051820075E-16,0.));
#353=DIRECTION('',(-1.,-5.90399369279558E-16,0.));
#354=DIRECTION('',(0.,0.,1.));
#355=DIRECTION('',(1.,5.90399369279558E-16,0.));
#356=DIRECTION('center_axis',(0.,0.,1.));
#357=DIRECTION('ref_axis',(1.64477485129653E-15,-1.,0.));
#358=DIRECTION('center_axis',(0.,0.,1.));
#359=DIRECTION('ref_axis',(1.64477485129653E-15,-1.,0.));
#360=DIRECTION('',(0.,0.,1.));
#361=DIRECTION('center_axis',(0.,0.,-1.));
#362=DIRECTION('ref_axis',(1.64477485129653E-15,-1.,0.));
#363=DIRECTION('center_axis',(5.90399369279558E-16,-1.,0.));
#364=DIRECTION('ref_axis',(1.,6.21724893790088E-16,0.));
#365=DIRECTION('',(1.,5.90399369279558E-16,0.));
#366=DIRECTION('',(-1.,-5.90399369279558E-16,0.));
#367=DIRECTION('center_axis',(0.,0.,1.));
#368=DIRECTION('ref_axis',(-1.,0.,0.));
#369=DIRECTION('center_axis',(0.,0.,-1.));
#370=DIRECTION('ref_axis',(-1.,0.,0.));
#371=DIRECTION('center_axis',(0.,0.,1.));
#372=DIRECTION('ref_axis',(-1.,0.,0.));
#373=DIRECTION('center_axis',(0.,0.,1.));
#374=DIRECTION('ref_axis',(-1.,0.,0.));
#375=DIRECTION('center_axis',(0.,0.,-1.));
#376=DIRECTION('ref_axis',(-1.,0.,0.));
#377=DIRECTION('center_axis',(0.,0.,1.));
#378=DIRECTION('ref_axis',(-1.,0.,0.));
#379=DIRECTION('center_axis',(0.,0.,1.));
#380=DIRECTION('ref_axis',(-1.,-2.22044604925031E-15,0.));
#381=DIRECTION('center_axis',(0.,0.,-1.));
#382=DIRECTION('ref_axis',(-1.,-2.22044604925031E-15,0.));
#383=DIRECTION('',(0.,0.,1.));
#384=DIRECTION('center_axis',(0.,0.,1.));
#385=DIRECTION('ref_axis',(-1.,-2.22044604925031E-15,0.));
#386=DIRECTION('',(0.,0.,1.));
#387=DIRECTION('center_axis',(1.,1.63890065539904E-15,0.));
#388=DIRECTION('ref_axis',(-1.77635683940025E-15,1.,0.));
#389=DIRECTION('',(1.63890065539904E-15,-1.,0.));
#390=DIRECTION('',(-1.63890065539904E-15,1.,0.));
#391=DIRECTION('',(0.,0.,1.));
#392=DIRECTION('center_axis',(0.,0.,1.));
#393=DIRECTION('ref_axis',(-1.11022302462516E-15,1.,0.));
#394=DIRECTION('center_axis',(0.,0.,-1.));
#395=DIRECTION('ref_axis',(-1.11022302462516E-15,1.,0.));
#396=DIRECTION('center_axis',(0.,0.,1.));
#397=DIRECTION('ref_axis',(-1.11022302462516E-15,1.,0.));
#398=DIRECTION('',(0.,0.,1.));
#399=DIRECTION('center_axis',(1.04094977927525E-15,-1.,0.));
#400=DIRECTION('ref_axis',(1.,1.04094977927525E-15,0.));
#401=DIRECTION('',(-1.,-1.04094977927525E-15,0.));
#402=DIRECTION('',(1.,1.04094977927525E-15,0.));
#403=DIRECTION('',(0.,0.,1.));
#404=DIRECTION('center_axis',(0.,0.,1.));
#405=DIRECTION('ref_axis',(1.,4.16333634234434E-16,0.));
#406=DIRECTION('center_axis',(0.,0.,-1.));
#407=DIRECTION('ref_axis',(1.,4.16333634234434E-16,0.));
#408=DIRECTION('center_axis',(0.,0.,1.));
#409=DIRECTION('ref_axis',(1.,4.16333634234434E-16,0.));
#410=DIRECTION('',(0.,0.,1.));
#411=DIRECTION('center_axis',(-1.,-4.75809867696496E-16,0.));
#412=DIRECTION('ref_axis',(3.5527136788005E-16,-1.,0.));
#413=DIRECTION('',(-4.75809867696496E-16,1.,0.));
#414=DIRECTION('',(4.75809867696496E-16,-1.,0.));
#415=DIRECTION('',(0.,0.,1.));
#416=DIRECTION('center_axis',(0.,0.,1.));
#417=DIRECTION('ref_axis',(5.55111512312579E-16,-1.,0.));
#418=DIRECTION('center_axis',(0.,0.,-1.));
#419=DIRECTION('ref_axis',(5.55111512312579E-16,-1.,0.));
#420=DIRECTION('center_axis',(0.,0.,1.));
#421=DIRECTION('ref_axis',(5.55111512312579E-16,-1.,0.));
#422=DIRECTION('',(0.,0.,1.));
#423=DIRECTION('center_axis',(-9.86864910777917E-16,1.,0.));
#424=DIRECTION('ref_axis',(-1.,-7.105427357601E-16,0.));
#425=DIRECTION('',(1.,9.86864910777917E-16,0.));
#426=DIRECTION('',(-1.,-9.86864910777917E-16,0.));
#427=DIRECTION('center_axis',(0.,0.,1.));
#428=DIRECTION('ref_axis',(1.,0.,0.));
#429=DIRECTION('center_axis',(0.,0.,1.));
#430=DIRECTION('ref_axis',(1.,0.,0.));
#431=CARTESIAN_POINT('',(0.,0.,0.));
#432=CARTESIAN_POINT('Origin',(-9.30461061433584,7.99999999999999,0.));
#433=CARTESIAN_POINT('',(-9.30461061433584,10.7,0.));
#434=CARTESIAN_POINT('',(-9.30461061433584,5.29999999999999,0.));
#435=CARTESIAN_POINT('Origin',(-9.30461061433584,7.99999999999999,0.));
#436=CARTESIAN_POINT('',(-9.30461061433584,10.7,3.));
#437=CARTESIAN_POINT('',(-9.30461061433584,10.7,0.));
#438=CARTESIAN_POINT('',(-9.30461061433584,5.29999999999999,3.));
#439=CARTESIAN_POINT('Origin',(-9.30461061433584,7.99999999999999,3.));
#440=CARTESIAN_POINT('',(-9.30461061433584,5.29999999999999,0.));
#441=CARTESIAN_POINT('Origin',(9.5,10.7,0.));
#442=CARTESIAN_POINT('',(9.5,10.7,0.));
#443=CARTESIAN_POINT('',(4.74999999999999,10.7,0.));
#444=CARTESIAN_POINT('',(9.5,10.7,3.));
#445=CARTESIAN_POINT('',(9.5,10.7,0.));
#446=CARTESIAN_POINT('',(4.74999999999999,10.7,3.));
#447=CARTESIAN_POINT('Origin',(9.49999999999999,8.00000000000001,0.));
#448=CARTESIAN_POINT('',(9.5,5.3,0.));
#449=CARTESIAN_POINT('Origin',(9.49999999999999,8.00000000000001,0.));
#450=CARTESIAN_POINT('',(9.5,5.3,3.));
#451=CARTESIAN_POINT('',(9.5,5.3,0.));
#452=CARTESIAN_POINT('Origin',(9.49999999999999,8.00000000000001,3.));
#453=CARTESIAN_POINT('Origin',(-9.30461061433584,5.29999999999999,0.));
#454=CARTESIAN_POINT('',(-4.65230530716793,5.3,0.));
#455=CARTESIAN_POINT('',(-4.65230530716793,5.3,3.));
#456=CARTESIAN_POINT('Origin',(9.49999999999997,42.,0.));
#457=CARTESIAN_POINT('',(12.2,42.,3.));
#458=CARTESIAN_POINT('Origin',(9.49999999999997,42.,3.));
#459=CARTESIAN_POINT('',(12.2,42.,0.));
#460=CARTESIAN_POINT('Origin',(9.49999999999997,42.,0.));
#461=CARTESIAN_POINT('Origin',(-9.50000000000006,42.,0.));
#462=CARTESIAN_POINT('',(-6.80000000000006,42.,3.));
#463=CARTESIAN_POINT('Origin',(-9.50000000000006,42.,3.));
#464=CARTESIAN_POINT('',(-6.80000000000006,42.,0.));
#465=CARTESIAN_POINT('Origin',(-9.50000000000006,42.,0.));
#466=CARTESIAN_POINT('Origin',(13.5,46.,0.));
#467=CARTESIAN_POINT('',(13.5,50.,0.));
#468=CARTESIAN_POINT('',(17.5,46.,0.));
#469=CARTESIAN_POINT('Origin',(13.5,46.,0.));
#470=CARTESIAN_POINT('',(13.5,50.,3.));
#471=CARTESIAN_POINT('',(13.5,50.,0.));
#472=CARTESIAN_POINT('',(17.5,46.,3.));
#473=CARTESIAN_POINT('Origin',(13.5,46.,3.));
#474=CARTESIAN_POINT('',(17.5,46.,0.));
#475=CARTESIAN_POINT('Origin',(17.5,4.00000000000002,0.));
#476=CARTESIAN_POINT('',(17.5,4.00000000000002,0.));
#477=CARTESIAN_POINT('',(17.5,46.,0.));
#478=CARTESIAN_POINT('',(17.5,4.00000000000002,3.));
#479=CARTESIAN_POINT('',(17.5,46.,3.));
#480=CARTESIAN_POINT('',(17.5,4.00000000000002,0.));
#481=CARTESIAN_POINT('Origin',(13.5,4.00000000000002,0.));
#482=CARTESIAN_POINT('',(13.5,1.64483022818677E-14,0.));
#483=CARTESIAN_POINT('Origin',(13.5,4.00000000000002,0.));
#484=CARTESIAN_POINT('',(13.5,1.77635683940025E-14,3.));
#485=CARTESIAN_POINT('Origin',(13.5,4.00000000000002,3.));
#486=CARTESIAN_POINT('',(13.5,1.64483022818677E-14,0.));
#487=CARTESIAN_POINT('Origin',(-13.5,-1.16573417585641E-14,0.));
#488=CARTESIAN_POINT('',(-13.5,-1.16573417585641E-14,0.));
#489=CARTESIAN_POINT('',(13.5,1.64483022818677E-14,0.));
#490=CARTESIAN_POINT('',(-13.5,-8.88178419700125E-15,3.));
#491=CARTESIAN_POINT('',(13.5,1.64483022818677E-14,3.));
#492=CARTESIAN_POINT('',(-13.5,-1.16573417585641E-14,0.));
#493=CARTESIAN_POINT('Origin',(-13.5,3.99999999999999,0.));
#494=CARTESIAN_POINT('',(-17.5,3.99999999999999,0.));
#495=CARTESIAN_POINT('Origin',(-13.5,3.99999999999999,0.));
#496=CARTESIAN_POINT('',(-17.5,3.99999999999999,3.));
#497=CARTESIAN_POINT('Origin',(-13.5,3.99999999999999,3.));
#498=CARTESIAN_POINT('',(-17.5,3.99999999999999,0.));
#499=CARTESIAN_POINT('Origin',(-17.5000000000001,46.,0.));
#500=CARTESIAN_POINT('',(-17.5000000000001,46.,0.));
#501=CARTESIAN_POINT('',(-17.5,3.99999999999999,0.));
#502=CARTESIAN_POINT('',(-17.5000000000001,46.,3.));
#503=CARTESIAN_POINT('',(-17.5,3.99999999999999,3.));
#504=CARTESIAN_POINT('',(-17.5000000000001,46.,0.));
#505=CARTESIAN_POINT('Origin',(-13.5000000000001,46.,0.));
#506=CARTESIAN_POINT('',(-13.5000000000001,50.,0.));
#507=CARTESIAN_POINT('Origin',(-13.5000000000001,46.,0.));
#508=CARTESIAN_POINT('',(-13.5000000000001,50.,3.));
#509=CARTESIAN_POINT('Origin',(-13.5000000000001,46.,3.));
#510=CARTESIAN_POINT('',(-13.5000000000001,50.,0.));
#511=CARTESIAN_POINT('Origin',(13.5,50.,0.));
#512=CARTESIAN_POINT('',(-13.5000000000001,50.,0.));
#513=CARTESIAN_POINT('',(-13.5000000000001,50.,3.));
#514=CARTESIAN_POINT('Origin',(-2.66496749905029E-14,25.,0.));
#515=CARTESIAN_POINT('Origin',(-2.66496749905029E-14,25.,3.));
#516=UNCERTAINTY_MEASURE_WITH_UNIT(LENGTH_MEASURE(0.01),#520,
'DISTANCE_ACCURACY_VALUE',
'Maximum model space distance between geometric entities at asserted c
onnectivities');
#517=UNCERTAINTY_MEASURE_WITH_UNIT(LENGTH_MEASURE(1.E-6),#520,
'DISTANCE_ACCURACY_VALUE',
'Maximum model space distance between geometric entities at asserted c
onnectivities');
#518=(
GEOMETRIC_REPRESENTATION_CONTEXT(3)
GLOBAL_UNCERTAINTY_ASSIGNED_CONTEXT((#516))
GLOBAL_UNIT_ASSIGNED_CONTEXT((#520,#523,#521))
REPRESENTATION_CONTEXT('','3D')
);
#519=(
GEOMETRIC_REPRESENTATION_CONTEXT(3)
GLOBAL_UNCERTAINTY_ASSIGNED_CONTEXT((#517))
GLOBAL_UNIT_ASSIGNED_CONTEXT((#520,#523,#521))
REPRESENTATION_CONTEXT('','3D')
);
#520=(
LENGTH_UNIT()
NAMED_UNIT(*)
SI_UNIT(.MILLI.,.METRE.)
);
#521=(
NAMED_UNIT(*)
SI_UNIT($,.STERADIAN.)
SOLID_ANGLE_UNIT()
);
#522=DIMENSIONAL_EXPONENTS(0.,0.,0.,0.,0.,0.,0.);
#523=(
CONVERSION_BASED_UNIT('degree',#525)
NAMED_UNIT(#522)
PLANE_ANGLE_UNIT()
);
#524=(
NAMED_UNIT(*)
PLANE_ANGLE_UNIT()
SI_UNIT($,.RADIAN.)
);
#525=PLANE_ANGLE_MEASURE_WITH_UNIT(PLANE_ANGLE_MEASURE(0.01745329252),#524);
#526=SHAPE_DEFINITION_REPRESENTATION(#527,#528);
#527=PRODUCT_DEFINITION_SHAPE('',$,#530);
#528=SHAPE_REPRESENTATION('',(#308),#518);
#529=PRODUCT_DEFINITION_CONTEXT('part definition',#534,'design');
#530=PRODUCT_DEFINITION('UNI MOUNT small H3 5.5',
'UNI MOUNT small H3 5.5',#531,#529);
#531=PRODUCT_DEFINITION_FORMATION('',$,#536);
#532=PRODUCT_RELATED_PRODUCT_CATEGORY('UNI MOUNT small H3 5.5',
'UNI MOUNT small H3 5.5',(#536));
#533=APPLICATION_PROTOCOL_DEFINITION('international standard',
'automotive_design',2009,#534);
#534=APPLICATION_CONTEXT(
'Core Data for Automotive Mechanical Design Process');
#535=PRODUCT_CONTEXT('part definition',#534,'mechanical');
#536=PRODUCT('UNI MOUNT small H3 5.5','UNI MOUNT small H3 5.5',$,(#535));
#537=PRESENTATION_STYLE_ASSIGNMENT((#538));
#538=SURFACE_STYLE_USAGE(.BOTH.,#539);
#539=SURFACE_SIDE_STYLE('',(#540));
#540=SURFACE_STYLE_FILL_AREA(#541);
#541=FILL_AREA_STYLE('',(#542));
#542=FILL_AREA_STYLE_COLOUR('',#543);
#543=COLOUR_RGB('',0.749019607843137,0.749019607843137,0.749019607843137);
ENDSEC;
END-ISO-10303-21;
